  0
SECTION
  2
HEADER
  9
$ACADVER
  1
AC1015
  9
$ACADMAINTVER
 70
     6
  9
$DWGCODEPAGE
  3
ANSI_1254
  9
$INSBASE
 10
0.0
 20
0.0
 30
0.0
  9
$EXTMIN
 10
0.0
 20
0.0
 30
0.0
  9
$EXTMAX
 10
279.4
 20
215.9
 30
0.0
  9
$LIMMIN
 10
0.0
 20
0.0
  9
$LIMMAX
 10
279.4
 20
215.9
  9
$ORTHOMODE
 70
     0
  9
$REGENMODE
 70
     1
  9
$FILLMODE
 70
     1
  9
$QTEXTMODE
 70
     0
  9
$MIRRTEXT
 70
     1
  9
$LTSCALE
 40
1.0
  9
$ATTMODE
 70
     1
  9
$TEXTSIZE
 40
3.5
  9
$TRACEWID
 40
1.0
  9
$TEXTSTYLE
  7
Standard
  9
$CLAYER
  8
0
  9
$CELTYPE
  6
ByLayer
  9
$CECOLOR
 62
   256
  9
$CELTSCALE
 40
1.0
  9
$DISPSILH
 70
     0
  9
$DIMSCALE
 40
1.0
  9
$DIMASZ
 40
3.5
  9
$DIMEXO
 40
1.0
  9
$DIMDLI
 40
3.75
  9
$DIMRND
 40
0.0
  9
$DIMDLE
 40
0.0
  9
$DIMEXE
 40
1.0
  9
$DIMTP
 40
0.0
  9
$DIMTM
 40
0.0
  9
$DIMTXT
 40
3.5
  9
$DIMCEN
 40
2.5
  9
$DIMTSZ
 40
0.0
  9
$DIMTOL
 70
     0
  9
$DIMLIM
 70
     0
  9
$DIMTIH
 70
     1
  9
$DIMTOH
 70
     1
  9
$DIMSE1
 70
     0
  9
$DIMSE2
 70
     0
  9
$DIMTAD
 70
     1
  9
$DIMZIN
 70
     0
  9
$DIMBLK
  1

  9
$DIMASO
 70
     1
  9
$DIMSHO
 70
     1
  9
$DIMPOST
  1

  9
$DIMAPOST
  1

  9
$DIMALT
 70
     0
  9
$DIMALTD
 70
     3
  9
$DIMALTF
 40
0.0393700787
  9
$DIMLFAC
 40
1.0
  9
$DIMTOFL
 70
     1
  9
$DIMTVP
 40
0.0
  9
$DIMTIX
 70
     0
  9
$DIMSOXD
 70
     0
  9
$DIMSAH
 70
     0
  9
$DIMBLK1
  1

  9
$DIMBLK2
  1

  9
$DIMSTYLE
  2
ISO-25
  9
$DIMCLRD
 70
     0
  9
$DIMCLRE
 70
     0
  9
$DIMCLRT
 70
     0
  9
$DIMTFAC
 40
1.0
  9
$DIMGAP
 40
1.524
  9
$DIMJUST
 70
     0
  9
$DIMSD1
 70
     0
  9
$DIMSD2
 70
     0
  9
$DIMTOLJ
 70
     0
  9
$DIMTZIN
 70
     0
  9
$DIMALTZ
 70
     0
  9
$DIMALTTZ
 70
     0
  9
$DIMUPT
 70
     0
  9
$DIMDEC
 70
     2
  9
$DIMTDEC
 70
     2
  9
$DIMALTU
 70
     2
  9
$DIMALTTD
 70
     3
  9
$DIMTXSTY
  7
Standard
  9
$DIMAUNIT
 70
     0
  9
$DIMADEC
 70
     2
  9
$DIMALTRND
 40
0.0
  9
$DIMAZIN
 70
     0
  9
$DIMDSEP
 70
    44
  9
$DIMATFIT
 70
     3
  9
$DIMFRAC
 70
     0
  9
$DIMLDRBLK
  1

  9
$DIMLUNIT
 70
     2
  9
$DIMLWD
 70
    -2
  9
$DIMLWE
 70
    -2
  9
$DIMTMOVE
 70
     0
  9
$LUNITS
 70
     2
  9
$LUPREC
 70
     2
  9
$SKETCHINC
 40
1.0
  9
$FILLETRAD
 40
10.0
  9
$AUNITS
 70
     0
  9
$AUPREC
 70
     2
  9
$MENU
  1
.
  9
$ELEVATION
 40
0.0
  9
$PELEVATION
 40
0.0
  9
$THICKNESS
 40
0.0
  9
$LIMCHECK
 70
     0
  9
$CHAMFERA
 40
0.0
  9
$CHAMFERB
 40
0.0
  9
$CHAMFERC
 40
0.0
  9
$CHAMFERD
 40
0.0
  9
$SKPOLY
 70
     0
  9
$TDCREATE
 40
2458985.699051412
  9
$TDUCREATE
 40
2458985.574051412
  9
$TDUPDATE
 40
2458985.699051829
  9
$TDUUPDATE
 40
2458985.574051829
  9
$TDINDWG
 40
0.0000000116
  9
$TDUSRTIMER
 40
0.0000000116
  9
$USRTIMER
 70
     1
  9
$ANGBASE
 50
0.0
  9
$ANGDIR
 70
     0
  9
$PDMODE
 70
     0
  9
$PDSIZE
 40
-1.0
  9
$PLINEWID
 40
0.0
  9
$SPLFRAME
 70
     0
  9
$SPLINETYPE
 70
     6
  9
$SPLINESEGS
 70
     8
  9
$HANDSEED
  5
EE
  9
$SURFTAB1
 70
     6
  9
$SURFTAB2
 70
     6
  9
$SURFTYPE
 70
     6
  9
$SURFU
 70
     6
  9
$SURFV
 70
     6
  9
$UCSBASE
  2

  9
$UCSNAME
  2

  9
$UCSORG
 10
0.0
 20
0.0
 30
0.0
  9
$UCSXDIR
 10
1.0
 20
0.0
 30
0.0
  9
$UCSYDIR
 10
0.0
 20
1.0
 30
0.0
  9
$UCSORTHOREF
  2

  9
$UCSORTHOVIEW
 70
     0
  9
$UCSORGTOP
 10
0.0
 20
0.0
 30
0.0
  9
$UCSORGBOTTOM
 10
0.0
 20
0.0
 30
0.0
  9
$UCSORGLEFT
 10
0.0
 20
0.0
 30
0.0
  9
$UCSORGRIGHT
 10
0.0
 20
0.0
 30
0.0
  9
$UCSORGFRONT
 10
0.0
 20
0.0
 30
0.0
  9
$UCSORGBACK
 10
0.0
 20
0.0
 30
0.0
  9
$PUCSBASE
  2

  9
$PUCSNAME
  2

  9
$PUCSORG
 10
0.0
 20
0.0
 30
0.0
  9
$PUCSXDIR
 10
1.0
 20
0.0
 30
0.0
  9
$PUCSYDIR
 10
0.0
 20
1.0
 30
0.0
  9
$PUCSORTHOREF
  2

  9
$PUCSORTHOVIEW
 70
     0
  9
$PUCSORGTOP
 10
0.0
 20
0.0
 30
0.0
  9
$PUCSORGBOTTOM
 10
0.0
 20
0.0
 30
0.0
  9
$PUCSORGLEFT
 10
0.0
 20
0.0
 30
0.0
  9
$PUCSORGRIGHT
 10
0.0
 20
0.0
 30
0.0
  9
$PUCSORGFRONT
 10
0.0
 20
0.0
 30
0.0
  9
$PUCSORGBACK
 10
0.0
 20
0.0
 30
0.0
  9
$USERI1
 70
     0
  9
$USERI2
 70
     0
  9
$USERI3
 70
     0
  9
$USERI4
 70
     0
  9
$USERI5
 70
     0
  9
$USERR1
 40
0.0
  9
$USERR2
 40
0.0
  9
$USERR3
 40
0.0
  9
$USERR4
 40
0.0
  9
$USERR5
 40
0.0
  9
$WORLDVIEW
 70
     1
  9
$SHADEDGE
 70
     3
  9
$SHADEDIF
 70
    70
  9
$TILEMODE
 70
     1
  9
$MAXACTVP
 70
    64
  9
$PINSBASE
 10
0.0
 20
0.0
 30
0.0
  9
$PLIMCHECK
 70
     0
  9
$PEXTMIN
 10
1.0000000000E+20
 20
1.0000000000E+20
 30
1.0000000000E+20
  9
$PEXTMAX
 10
-1.0000000000E+20
 20
-1.0000000000E+20
 30
-1.0000000000E+20
  9
$PLIMMIN
 10
0.0
 20
0.0
  9
$PLIMMAX
 10
420.0
 20
297.0
  9
$UNITMODE
 70
     0
  9
$VISRETAIN
 70
     1
  9
$PLINEGEN
 70
     0
  9
$PSLTSCALE
 70
     1
  9
$TREEDEPTH
 70
  3020
  9
$CMLSTYLE
  2
Standard
  9
$CMLJUST
 70
     0
  9
$CMLSCALE
 40
20.0
  9
$PROXYGRAPHICS
 70
     1
  9
$MEASUREMENT
 70
     1
  9
$CELWEIGHT
370
    -1
  9
$ENDCAPS
280
     0
  9
$JOINSTYLE
280
     0
  9
$LWDISPLAY
290
     1
  9
$INSUNITS
 70
     4
  9
$HYPERLINKBASE
  1

  9
$STYLESHEET
  1

  9
$XEDIT
290
     1
  9
$CEPSNTYPE
380
     0
  9
$PSTYLEMODE
290
     1
  9
$FINGERPRINTGUID
  2
{468d02c8-a377-4f1b-807e-9d02f9341568}
  9
$VERSIONGUID
  2
{FAEB1C32-E019-11D5-929B-00C0DF256EC4}
  9
$EXTNAMES
290
     1
  9
$PSVPSCALE
 40
0.0
  9
$OLESTARTUP
290
     0
  0
ENDSEC
  0
SECTION
  2
CLASSES
  0
CLASS
  1
ACDBDICTIONARYWDFLT
  2
AcDbDictionaryWithDefault
  3
ObjectDBX Classes
 90
        0
280
     0
281
     0
  0
CLASS
  1
VISUALSTYLE
  2
AcDbVisualStyle
  3
ObjectDBX Classes
 90
     4095
280
     0
281
     0
  0
CLASS
  1
MATERIAL
  2
AcDbMaterial
  3
ObjectDBX Classes
 90
     1153
280
     0
281
     0
  0
CLASS
  1
SCALE
  2
AcDbScale
  3
ObjectDBX Classes
 90
     1153
280
     0
281
     0
  0
CLASS
  1
TABLESTYLE
  2
AcDbTableStyle
  3
ObjectDBX Classes
 90
     4095
280
     0
281
     0
  0
CLASS
  1
MLEADERSTYLE
  2
AcDbMLeaderStyle
  3
ACDB_MLEADERSTYLE_CLASS
 90
     4095
280
     0
281
     0
  0
CLASS
  1
SUN
  2
AcDbSun
  3
SCENEOE
 90
     1153
280
     0
281
     0
  0
CLASS
  1
ACDBPLACEHOLDER
  2
AcDbPlaceHolder
  3
ObjectDBX Classes
 90
        0
280
     0
281
     0
  0
CLASS
  1
LAYOUT
  2
AcDbLayout
  3
ObjectDBX Classes
 90
        0
280
     0
281
     0
  0
ENDSEC
  0
SECTION
  2
TABLES
  0
TABLE
  2
VPORT
  5
8
330
0
100
AcDbSymbolTable
 70
     1
  0
VPORT
  5
29
330
8
100
AcDbSymbolTableRecord
100
AcDbViewportTableRecord
  2
*Active
 70
     0
 10
0.0
 20
0.0
 11
1.0
 21
1.0
 12
139.7
 22
107.95
 13
0.0
 23
0.0
 14
10.0
 24
10.0
 15
10.0
 25
10.0
 16
0.0
 26
0.0
 36
1.0
 17
0.0
 27
0.0
 37
0.0
 40
215.9
 41
1.2941176471
 42
50.0
 43
0.0
 44
0.0
 50
0.0
 51
0.0
 71
     0
 72
  2000
 73
     1
 74
     3
 75
     0
 76
     0
 77
     0
 78
     0
281
     0
 65
     1
110
0.0
120
0.0
130
0.0
111
1.0
121
0.0
131
0.0
112
0.0
122
1.0
132
0.0
 79
     0
146
0.0
  0
ENDTAB
  0
TABLE
  2
LTYPE
  5
5
330
0
100
AcDbSymbolTable
 70
     6
  0
LTYPE
  5
14
330
5
100
AcDbSymbolTableRecord
100
AcDbLinetypeTableRecord
  2
ByBlock
 70
     0
  3

 72
    65
 73
     0
 40
0.0
  0
LTYPE
  5
15
330
5
100
AcDbSymbolTableRecord
100
AcDbLinetypeTableRecord
  2
ByLayer
 70
     0
  3

 72
    65
 73
     0
 40
0.0
  0
LTYPE
  5
16
330
5
100
AcDbSymbolTableRecord
100
AcDbLinetypeTableRecord
  2
Continuous
 70
     0
  3
Solid line
 72
    65
 73
     0
 40
0.0
  0
LTYPE
  5
6E
330
5
100
AcDbSymbolTableRecord
100
AcDbLinetypeTableRecord
  2
HIDDEN
 70
     0
  3
Hidden __ __ __ __ __ __ __ __ __ __ __ __ __ __
 72
    65
 73
     2
 40
1.905
 49
1.27
 74
     0
 49
-0.635
 74
     0
  0
LTYPE
  5
6F
330
5
100
AcDbSymbolTableRecord
100
AcDbLinetypeTableRecord
  2
PHANTOM
 70
     0
  3
Phantom ______  __  __  ______  __  __  ______
 72
    65
 73
     6
 40
12.7
 49
6.35
 74
     0
 49
-1.27
 74
     0
 49
1.27
 74
     0
 49
-1.27
 74
     0
 49
1.27
 74
     0
 49
-1.27
 74
     0
  0
LTYPE
  5
70
330
5
100
AcDbSymbolTableRecord
100
AcDbLinetypeTableRecord
  2
CENTER
 70
     0
  3
Center ____ _ ____ _ ____ _ ____ _ ____ _ ____
 72
    65
 73
     4
 40
10.16
 49
6.35
 74
     0
 49
-1.27
 74
     0
 49
1.27
 74
     0
 49
-1.27
 74
     0
  0
LTYPE
  5
71
330
5
100
AcDbSymbolTableRecord
100
AcDbLinetypeTableRecord
  2
CENTERX2
 70
     0
  3
Center (2x) ________  __  ________  __  _____
 72
    65
 73
     4
 40
20.32
 49
12.7
 74
     0
 49
-2.54
 74
     0
 49
2.54
 74
     0
 49
-2.54
 74
     0
  0
LTYPE
  5
72
330
5
100
AcDbSymbolTableRecord
100
AcDbLinetypeTableRecord
  2
DOT2
 70
     0
  3
Dot (.5x) ........................................
 72
    65
 73
     2
 40
0.635
 49
0.0
 74
     0
 49
-0.635
 74
     0
  0
ENDTAB
  0
TABLE
  2
LAYER
  5
2
330
0
100
AcDbSymbolTable
 70
    17
  0
LAYER
  5
10
330
2
100
AcDbSymbolTableRecord
100
AcDbLayerTableRecord
  2
0
 70
     0
 62
     7
  6
Continuous
370
    -3
390
F
  0
LAYER
  5
73
330
2
100
AcDbSymbolTableRecord
100
AcDbLayerTableRecord
  2
FORMAT
 70
     0
 62
     7
  6
Continuous
370
    -3
390
F
  0
LAYER
  5
74
330
2
100
AcDbSymbolTableRecord
100
AcDbLayerTableRecord
  2
YARDIMCI_GEOMETRI
 70
     0
 62
    -6
  6
Continuous
290
     0
370
    -3
390
F
  0
LAYER
  5
75
330
2
100
AcDbSymbolTableRecord
100
AcDbLayerTableRecord
  2
SAYFA_CERCEVESI
 70
     0
 62
     7
  6
Continuous
370
    25
390
F
  0
LAYER
  5
76
330
2
100
AcDbSymbolTableRecord
100
AcDbLayerTableRecord
  2
ANTET
 70
     0
 62
     7
  6
Continuous
370
    -3
390
F
  0
LAYER
  5
77
330
2
100
AcDbSymbolTableRecord
100
AcDbLayerTableRecord
  2
OLCU
 70
     0
 62
   150
  6
Continuous
370
    -3
390
F
  0
LAYER
  5
78
330
2
100
AcDbSymbolTableRecord
100
AcDbLayerTableRecord
  2
METIN
 70
     0
 62
    96
  6
Continuous
370
    -3
390
F
  0
LAYER
  5
79
330
2
100
AcDbSymbolTableRecord
100
AcDbLayerTableRecord
  2
BALON
 70
     0
 62
     5
  6
Continuous
370
    -3
390
F
  0
LAYER
  5
7A
330
2
100
AcDbSymbolTableRecord
100
AcDbLayerTableRecord
  2
VURGU
 70
     0
 62
     7
  6
Continuous
370
    -3
390
F
  0
LAYER
  5
7B
330
2
100
AcDbSymbolTableRecord
100
AcDbLayerTableRecord
  2
SILIK
 70
     0
 62
     7
  6
Continuous
370
    -3
390
F
  0
LAYER
  5
7C
330
2
100
AcDbSymbolTableRecord
100
AcDbLayerTableRecord
  2
MODEL
 70
     0
 62
     7
  6
Continuous
370
    -3
390
F
  0
LAYER
  5
7D
330
2
100
AcDbSymbolTableRecord
100
AcDbLayerTableRecord
  2
DETAYLANDıRMA
 70
     0
 62
   190
  6
Continuous
370
    -3
390
F
  0
LAYER
  5
7E
330
2
100
AcDbSymbolTableRecord
100
AcDbLayerTableRecord
  2
TOLERANS
 70
     0
 62
   230
  6
Continuous
370
    -3
390
F
  0
LAYER
  5
7F
330
2
100
AcDbSymbolTableRecord
100
AcDbLayerTableRecord
  2
MERKEZ_CIZGILERI
 70
     0
 62
    30
  6
Continuous
370
    -3
390
F
  0
LAYER
  5
80
330
2
100
AcDbSymbolTableRecord
100
AcDbLayerTableRecord
  2
KESIT-DETAY_CIZGILERI
 70
     0
 62
     7
  6
Continuous
370
    -3
390
F
  0
LAYER
  5
81
330
2
100
AcDbSymbolTableRecord
100
AcDbLayerTableRecord
  2
\U+041E\U+0421\U+0415\U+0412\U+042B\U+0415
 70
     0
 62
     7
  6
Continuous
370
    -3
390
F
  0
LAYER
  5
82
330
2
100
AcDbSymbolTableRecord
100
AcDbLayerTableRecord
  2
\U+0412\U+041E\U+0414\U+042F\U+041D\U+042B\U+0415_\U+0417\U+041D\U+0410\U+041A\U+0418
 70
     0
 62
    11
  6
Continuous
370
    -3
390
F
  0
ENDTAB
  0
TABLE
  2
STYLE
  5
3
330
0
100
AcDbSymbolTable
 70
     1
  0
STYLE
  5
11
330
3
100
AcDbSymbolTableRecord
100
AcDbTextStyleTableRecord
  2
Standard
 70
     0
 40
0.0
 41
1.0
 50
0.0
 71
     0
 42
3.5
  3
txt
  4

  0
ENDTAB
  0
TABLE
  2
VIEW
  5
6
330
0
100
AcDbSymbolTable
 70
     0
  0
ENDTAB
  0
TABLE
  2
UCS
  5
7
330
0
100
AcDbSymbolTable
 70
     0
  0
ENDTAB
  0
TABLE
  2
APPID
  5
9
330
0
100
AcDbSymbolTable
 70
     1
  0
APPID
  5
12
330
9
100
AcDbSymbolTableRecord
100
AcDbRegAppTableRecord
  2
ACAD
 70
     0
  0
ENDTAB
  0
TABLE
  2
DIMSTYLE
  5
A
330
0
100
AcDbSymbolTable
 70
     1
100
AcDbDimStyleTable
  0
DIMSTYLE
105
27
330
A
100
AcDbSymbolTableRecord
100
AcDbDimStyleTableRecord
  2
ISO-25
 70
     0
 41
2.5
 42
0.625
 43
3.75
 44
1.25
 73
     0
 74
     0
 77
     1
 78
     8
140
2.5
141
2.5
143
0.0393700787
147
0.625
171
     3
172
     1
178
     0
271
     2
272
     2
274
     3
278
    44
283
     0
284
     8
340
11
  0
ENDTAB
  0
TABLE
  2
BLOCK_RECORD
  5
1
330
0
100
AcDbSymbolTable
 70
     2
  0
BLOCK_RECORD
  5
1F
330
1
100
AcDbSymbolTableRecord
100
AcDbBlockTableRecord
  2
*Model_Space
340
22
  0
BLOCK_RECORD
  5
1B
330
1
100
AcDbSymbolTableRecord
100
AcDbBlockTableRecord
  2
*Paper_Space
340
1E
  0
BLOCK_RECORD
  5
23
330
1
100
AcDbSymbolTableRecord
100
AcDbBlockTableRecord
  2
*Paper_Space0
340
26
  0
BLOCK_RECORD
  5
88
330
1
100
AcDbSymbolTableRecord
100
AcDbBlockTableRecord
  2
SW_CENTERMARKSYMBOL_0
340
0
102
{BLKREFS
331
93
102
}
  0
ENDTAB
  0
ENDSEC
  0
SECTION
  2
BLOCKS
  0
BLOCK
  5
20
330
1F
100
AcDbEntity
  8
0
100
AcDbBlockBegin
  2
*Model_Space
 70
     0
 10
0.0
 20
0.0
 30
0.0
  3
*Model_Space
  1

  0
ENDBLK
  5
21
330
1F
100
AcDbEntity
  8
0
100
AcDbBlockEnd
  0
BLOCK
  5
1C
330
1B
100
AcDbEntity
 67
     1
  8
0
100
AcDbBlockBegin
  2
*Paper_Space
 70
     0
 10
0.0
 20
0.0
 30
0.0
  3
*Paper_Space
  1

  0
ENDBLK
  5
1D
330
1B
100
AcDbEntity
 67
     1
  8
0
100
AcDbBlockEnd
  0
BLOCK
  5
24
330
23
100
AcDbEntity
  8
0
100
AcDbBlockBegin
  2
*Paper_Space0
 70
     0
 10
0.0
 20
0.0
 30
0.0
  3
*Paper_Space0
  1

  0
ENDBLK
  5
25
330
23
100
AcDbEntity
  8
0
100
AcDbBlockEnd
  0
BLOCK
  5
89
330
88
100
AcDbEntity
  8
0
100
AcDbBlockBegin
  2
SW_CENTERMARKSYMBOL_0
 70
     0
 10
0.0
 20
0.0
 30
0.0
  3
SW_CENTERMARKSYMBOL_0
  1

  0
LINE
  5
8B
330
88
100
AcDbEntity
  8
FORMAT
 62
     0
100
AcDbLine
 10
0.0
 20
0.0
 30
0.0
 11
0.0
 21
2.5
 31
0.0
  0
LINE
  5
8C
330
88
100
AcDbEntity
  8
FORMAT
 62
     0
100
AcDbLine
 10
0.0
 20
0.0
 30
0.0
 11
-2.5
 21
0.0
 31
0.0
  0
LINE
  5
8D
330
88
100
AcDbEntity
  8
FORMAT
 62
     0
100
AcDbLine
 10
0.0
 20
0.0
 30
0.0
 11
0.0
 21
-2.5
 31
0.0
  0
LINE
  5
8E
330
88
100
AcDbEntity
  8
FORMAT
 62
     0
100
AcDbLine
 10
0.0
 20
0.0
 30
0.0
 11
2.5
 21
0.0
 31
0.0
  0
LINE
  5
8F
330
88
100
AcDbEntity
  8
FORMAT
 62
     0
100
AcDbLine
 10
0.0
 20
5.0
 30
0.0
 11
0.0
 21
65.0
 31
0.0
  0
LINE
  5
90
330
88
100
AcDbEntity
  8
FORMAT
 62
     0
100
AcDbLine
 10
-5.0
 20
0.0
 30
0.0
 11
-65.0
 21
0.0
 31
0.0
  0
LINE
  5
91
330
88
100
AcDbEntity
  8
FORMAT
 62
     0
100
AcDbLine
 10
0.0
 20
-5.0
 30
0.0
 11
0.0
 21
-65.0
 31
0.0
  0
LINE
  5
92
330
88
100
AcDbEntity
  8
FORMAT
 62
     0
100
AcDbLine
 10
5.0
 20
0.0
 30
0.0
 11
65.0
 21
0.0
 31
0.0
  0
ENDBLK
  5
8A
330
88
100
AcDbEntity
  8
0
100
AcDbBlockEnd
  0
ENDSEC
  0
SECTION
  2
ENTITIES
  0
CIRCLE
  5
83
330
1F
100
AcDbEntity
  8
0
  6
Continuous
 62
     7
370
    25
100
AcDbCircle
 10
139.395004093
 20
107.5851680021
 30
0.0
 40
62.5
  0
CIRCLE
  5
84
330
1F
100
AcDbEntity
  8
0
  6
Continuous
 62
     7
370
    25
100
AcDbCircle
 10
139.395004093
 20
107.5851680021
 30
0.0
 40
51.10000000000001
  0
CIRCLE
  5
85
330
1F
100
AcDbEntity
  8
0
  6
Continuous
 62
     7
370
    25
100
AcDbCircle
 10
139.395004093
 20
107.5851680021
 30
0.0
 40
50.6916204318326
  0
CIRCLE
  5
86
330
1F
100
AcDbEntity
  8
0
  6
Continuous
 62
     7
370
    25
100
AcDbCircle
 10
139.395004093
 20
107.5851680021
 30
0.0
 40
31.10837956816742
  0
CIRCLE
  5
87
330
1F
100
AcDbEntity
  8
0
  6
Continuous
 62
     7
370
    25
100
AcDbCircle
 10
139.395004093
 20
107.5851680021
 30
0.0
 40
30.7
  0
INSERT
  5
93
330
1F
100
AcDbEntity
  8
FORMAT
 62
     7
100
AcDbBlockReference
  2
SW_CENTERMARKSYMBOL_0
 10
139.395004093
 20
107.5851680021
 30
0.0
  0
ARC
  5
94
330
1F
100
AcDbEntity
  8
0
  6
Continuous
 62
     7
370
    25
100
AcDbCircle
 10
-114.083295834
 20
168.0851680021
 30
0.0
 40
2.000000000000011
100
AcDbArc
 50
66.6822916132
 51
90.0
  0
ARC
  5
95
330
1F
100
AcDbEntity
  8
0
  6
Continuous
 62
     7
370
    25
100
AcDbCircle
 10
-114.083295834
 20
47.0851680021
 30
0.0
 40
2.000000000000014
100
AcDbArc
 50
270.0
 51
293.3177083868
  0
LINE
  5
96
330
1F
100
AcDbEntity
  8
0
  6
Continuous
 62
     7
370
    25
100
AcDbLine
 10
-114.0832949622
 20
170.0851680021
 30
0.0
 11
-200.6706159754
 21
170.0851680021
 31
0.0
  0
LINE
  5
97
330
1F
100
AcDbEntity
  8
0
  6
Continuous
 62
     7
370
    25
100
AcDbLine
 10
-200.6706159754
 20
45.0851680021
 30
0.0
 11
-114.0832949622
 21
45.0851680021
 31
0.0
  0
LINE
  5
98
330
1F
100
AcDbEntity
  8
0
  6
Continuous
 62
     7
370
    25
100
AcDbLine
 10
-113.2916372462
 20
45.2485182564
 30
0.0
 11
-56.0495902045
 21
69.9218162577
 31
0.0
  0
LINE
  5
99
330
1F
100
AcDbEntity
  8
0
  6
Continuous
 62
     7
370
    25
100
AcDbLine
 10
-56.0495902045
 20
145.2485197465
 30
0.0
 11
-113.2916372462
 21
169.9218177478
 31
0.0
  0
ARC
  5
9A
330
1F
100
AcDbEntity
  8
0
  6
Continuous
 62
     7
370
    25
100
AcDbCircle
 10
-55.2579309222
 20
147.0851680021
 30
0.0
 40
2.000000000000008
100
AcDbArc
 50
246.6822916132
 51
270.0
  0
ARC
  5
9B
330
1F
100
AcDbEntity
  8
0
  6
Continuous
 62
     7
370
    25
100
AcDbCircle
 10
-55.2579309222
 20
68.0851680021
 30
0.0
 40
1.999999999999995
100
AcDbArc
 50
90.0
 51
113.3177083868
  0
LINE
  5
9C
330
1F
100
AcDbEntity
  8
0
  6
Continuous
 62
     7
370
    25
100
AcDbLine
 10
14.3293876009
 20
145.0851694922
 30
0.0
 11
-55.2579324885
 21
145.0851694922
 31
0.0
  0
LINE
  5
9D
330
1F
100
AcDbEntity
  8
0
  6
Continuous
 62
     7
370
    25
100
AcDbLine
 10
-55.2579324885
 20
70.085166512
 30
0.0
 11
14.3293876009
 21
70.085166512
 31
0.0
  0
LINE
  5
9E
330
1F
100
AcDbEntity
  8
0
  6
Continuous
 62
     7
370
    25
100
AcDbLine
 10
-200.6706159754
 20
170.0851680021
 30
0.0
 11
-200.6706159754
 21
45.0851680021
 31
0.0
  0
LINE
  5
9F
330
1F
100
AcDbEntity
  8
0
  6
Continuous
 62
     7
370
    25
100
AcDbLine
 10
14.3293876009
 20
145.0851694922
 30
0.0
 11
14.3293876009
 21
70.085166512
 31
0.0
  0
LINE
  5
A0
330
1F
100
AcDbEntity
  8
0
  6
Continuous
 62
     1
370
    25
100
AcDbLine
 10
-113.2916372462
 20
169.9218177478
 30
0.0
 11
-113.2916372462
 21
45.2485182564
 31
0.0
  0
LINE
  5
A1
330
1F
100
AcDbEntity
  8
0
  6
Continuous
 62
     1
370
    25
100
AcDbLine
 10
-114.0832949622
 20
170.0851680021
 30
0.0
 11
-114.0832949622
 21
45.0851680021
 31
0.0
  0
LINE
  5
A2
330
1F
100
AcDbEntity
  8
0
  6
Continuous
 62
     1
370
    25
100
AcDbLine
 10
-56.0495902045
 20
145.2485197465
 30
0.0
 11
-56.0495902045
 21
69.9218162577
 31
0.0
  0
LINE
  5
A3
330
1F
100
AcDbEntity
  8
0
  6
Continuous
 62
     1
370
    25
100
AcDbLine
 10
-55.2579324885
 20
145.0851694922
 30
0.0
 11
-55.2579324885
 21
70.085166512
 31
0.0
  0
ARC
  5
A4
330
1F
100
AcDbEntity
  8
0
  6
Continuous
 62
     7
370
    25
100
AcDbCircle
 10
398.1673097899
 20
47.0851680021
 30
0.0
 40
2.000000000000014
100
AcDbArc
 50
246.6822916132
 51
270.0
  0
ARC
  5
A5
330
1F
100
AcDbEntity
  8
0
  6
Continuous
 62
     7
370
    25
100
AcDbCircle
 10
398.1673097899
 20
168.0851680021
 30
0.0
 40
2.000000000000011
100
AcDbArc
 50
90.0
 51
113.3177083868
  0
LINE
  5
A6
330
1F
100
AcDbEntity
  8
0
  6
Continuous
 62
     7
370
    25
100
AcDbLine
 10
398.1673089181
 20
45.0851680021
 30
0.0
 11
484.7546299313
 21
45.0851680021
 31
0.0
  0
LINE
  5
A7
330
1F
100
AcDbEntity
  8
0
  6
Continuous
 62
     7
370
    25
100
AcDbLine
 10
484.7546299313
 20
170.0851680021
 30
0.0
 11
398.1673089181
 21
170.0851680021
 31
0.0
  0
LINE
  5
A8
330
1F
100
AcDbEntity
  8
0
  6
Continuous
 62
     7
370
    25
100
AcDbLine
 10
397.3756512021
 20
169.9218177478
 30
0.0
 11
340.1336041604
 21
145.2485197465
 31
0.0
  0
LINE
  5
A9
330
1F
100
AcDbEntity
  8
0
  6
Continuous
 62
     7
370
    25
100
AcDbLine
 10
340.1336041604
 20
69.9218162577
 30
0.0
 11
397.3756512021
 21
45.2485182564
 31
0.0
  0
ARC
  5
AA
330
1F
100
AcDbEntity
  8
0
  6
Continuous
 62
     7
370
    25
100
AcDbCircle
 10
339.3419448781
 20
68.0851680021
 30
0.0
 40
2.00000000000002
100
AcDbArc
 50
66.6822916132
 51
90.0
  0
ARC
  5
AB
330
1F
100
AcDbEntity
  8
0
  6
Continuous
 62
     7
370
    25
100
AcDbCircle
 10
339.3419448781
 20
147.0851680021
 30
0.0
 40
2.000000000000033
100
AcDbArc
 50
270.0
 51
293.3177083868
  0
LINE
  5
AC
330
1F
100
AcDbEntity
  8
0
  6
Continuous
 62
     7
370
    25
100
AcDbLine
 10
269.754626355
 20
70.085166512
 30
0.0
 11
339.3419464444
 21
70.085166512
 31
0.0
  0
LINE
  5
AD
330
1F
100
AcDbEntity
  8
0
  6
Continuous
 62
     7
370
    25
100
AcDbLine
 10
339.3419464444
 20
145.0851694922
 30
0.0
 11
269.754626355
 21
145.0851694922
 31
0.0
  0
LINE
  5
AE
330
1F
100
AcDbEntity
  8
0
  6
Continuous
 62
     7
370
    25
100
AcDbLine
 10
484.7546299313
 20
107.5851680021
 30
0.0
 11
484.7546299313
 21
170.0851680021
 31
0.0
  0
LINE
  5
AF
330
1F
100
AcDbEntity
  8
0
  6
Continuous
 62
     7
370
    25
100
AcDbLine
 10
484.7546299313
 20
45.0851680021
 30
0.0
 11
484.7546299313
 21
107.5851680021
 31
0.0
  0
LINE
  5
B0
330
1F
100
AcDbEntity
  8
0
  6
Continuous
 62
     7
370
    25
100
AcDbLine
 10
269.754626355
 20
107.5851680021
 30
0.0
 11
269.754626355
 21
145.0851694922
 31
0.0
  0
LINE
  5
B1
330
1F
100
AcDbEntity
  8
0
  6
Continuous
 62
     7
370
    25
100
AcDbLine
 10
269.754626355
 20
70.085166512
 30
0.0
 11
269.754626355
 21
107.5851680021
 31
0.0
  0
LINE
  5
B2
330
1F
100
AcDbEntity
  8
0
  6
Continuous
 62
     1
370
    25
100
AcDbLine
 10
397.3756512021
 20
107.5851680021
 30
0.0
 11
397.3756512021
 21
169.9218177478
 31
0.0
  0
LINE
  5
B3
330
1F
100
AcDbEntity
  8
0
  6
Continuous
 62
     1
370
    25
100
AcDbLine
 10
397.3756512021
 20
45.2485182564
 30
0.0
 11
397.3756512021
 21
107.5851680021
 31
0.0
  0
LINE
  5
B4
330
1F
100
AcDbEntity
  8
0
  6
Continuous
 62
     1
370
    25
100
AcDbLine
 10
398.1673089181
 20
107.5851680021
 30
0.0
 11
398.1673089181
 21
170.0851680021
 31
0.0
  0
LINE
  5
B5
330
1F
100
AcDbEntity
  8
0
  6
Continuous
 62
     1
370
    25
100
AcDbLine
 10
398.1673089181
 20
45.0851680021
 30
0.0
 11
398.1673089181
 21
107.5851680021
 31
0.0
  0
LINE
  5
B6
330
1F
100
AcDbEntity
  8
0
  6
Continuous
 62
     1
370
    25
100
AcDbLine
 10
340.1336041604
 20
107.5851680021
 30
0.0
 11
340.1336041604
 21
145.2485197465
 31
0.0
  0
LINE
  5
B7
330
1F
100
AcDbEntity
  8
0
  6
Continuous
 62
     1
370
    25
100
AcDbLine
 10
340.1336041604
 20
69.9218162577
 30
0.0
 11
340.1336041604
 21
107.5851680021
 31
0.0
  0
LINE
  5
B8
330
1F
100
AcDbEntity
  8
0
  6
Continuous
 62
     1
370
    25
100
AcDbLine
 10
339.3419464444
 20
107.5851680021
 30
0.0
 11
339.3419464444
 21
145.0851694922
 31
0.0
  0
LINE
  5
B9
330
1F
100
AcDbEntity
  8
0
  6
Continuous
 62
     1
370
    25
100
AcDbLine
 10
339.3419464444
 20
70.085166512
 30
0.0
 11
339.3419464444
 21
107.5851680021
 31
0.0
  0
ARC
  5
BA
330
1F
100
AcDbEntity
  8
0
  6
Continuous
 62
     7
370
    25
100
AcDbCircle
 10
199.895004093
 20
333.9897610525
 30
0.0
 40
2.000000000000033
100
AcDbArc
 50
336.6822916132
 51
0.0
  0
ARC
  5
BB
330
1F
100
AcDbEntity
  8
0
  6
Continuous
 62
     7
370
    25
100
AcDbCircle
 10
78.895004093
 20
333.9897610525
 30
0.0
 40
2.000000000000033
100
AcDbArc
 50
180.0
 51
203.3177083868
  0
LINE
  5
BC
330
1F
100
AcDbEntity
  8
0
  6
Continuous
 62
     7
370
    25
100
AcDbLine
 10
201.895004093
 20
333.9897601808
 30
0.0
 11
201.895004093
 21
420.577081194
 31
0.0
  0
LINE
  5
BD
330
1F
100
AcDbEntity
  8
0
  6
Continuous
 62
     7
370
    25
100
AcDbLine
 10
76.895004093
 20
420.577081194
 30
0.0
 11
76.895004093
 21
333.9897601808
 31
0.0
  0
LINE
  5
BE
330
1F
100
AcDbEntity
  8
0
  6
Continuous
 62
     7
370
    25
100
AcDbLine
 10
77.0583543473
 20
333.1981024647
 30
0.0
 11
101.7316523486
 21
275.9560554231
 31
0.0
  0
LINE
  5
BF
330
1F
100
AcDbEntity
  8
0
  6
Continuous
 62
     7
370
    25
100
AcDbLine
 10
177.0583558375
 20
275.9560554231
 30
0.0
 11
201.7316538388
 21
333.1981024647
 31
0.0
  0
ARC
  5
C0
330
1F
100
AcDbEntity
  8
0
  6
Continuous
 62
     7
370
    25
100
AcDbCircle
 10
178.895004093
 20
275.1643961408
 30
0.0
 40
1.999999999999985
100
AcDbArc
 50
156.6822916132
 51
180.0
  0
ARC
  5
C1
330
1F
100
AcDbEntity
  8
0
  6
Continuous
 62
     7
370
    25
100
AcDbCircle
 10
99.895004093
 20
275.1643961408
 30
0.0
 40
1.999999999999998
100
AcDbArc
 50
0.0
 51
23.3177083868
  0
LINE
  5
C2
330
1F
100
AcDbEntity
  8
0
  6
Continuous
 62
     7
370
    25
100
AcDbLine
 10
176.8950055832
 20
205.5770776177
 30
0.0
 11
176.8950055832
 21
275.164397707
 31
0.0
  0
LINE
  5
C3
330
1F
100
AcDbEntity
  8
0
  6
Continuous
 62
     7
370
    25
100
AcDbLine
 10
101.8950026029
 20
275.164397707
 30
0.0
 11
101.8950026029
 21
205.5770776177
 31
0.0
  0
LINE
  5
C4
330
1F
100
AcDbEntity
  8
0
  6
Continuous
 62
     7
370
    25
100
AcDbLine
 10
201.895004093
 20
420.577081194
 30
0.0
 11
76.895004093
 21
420.577081194
 31
0.0
  0
LINE
  5
C5
330
1F
100
AcDbEntity
  8
0
  6
Continuous
 62
     7
370
    25
100
AcDbLine
 10
176.8950055832
 20
205.5770776177
 30
0.0
 11
101.8950026029
 21
205.5770776177
 31
0.0
  0
LINE
  5
C6
330
1F
100
AcDbEntity
  8
0
  6
Continuous
 62
     1
370
    25
100
AcDbLine
 10
201.7316538388
 20
333.1981024647
 30
0.0
 11
77.0583543473
 21
333.1981024647
 31
0.0
  0
LINE
  5
C7
330
1F
100
AcDbEntity
  8
0
  6
Continuous
 62
     1
370
    25
100
AcDbLine
 10
201.895004093
 20
333.9897601808
 30
0.0
 11
76.895004093
 21
333.9897601808
 31
0.0
  0
LINE
  5
C8
330
1F
100
AcDbEntity
  8
0
  6
Continuous
 62
     1
370
    25
100
AcDbLine
 10
177.0583558375
 20
275.9560554231
 30
0.0
 11
101.7316523486
 21
275.9560554231
 31
0.0
  0
LINE
  5
C9
330
1F
100
AcDbEntity
  8
0
  6
Continuous
 62
     1
370
    25
100
AcDbLine
 10
176.8950055832
 20
275.164397707
 30
0.0
 11
101.8950026029
 21
275.164397707
 31
0.0
  0
ARC
  5
CA
330
1F
100
AcDbEntity
  8
0
  6
Continuous
 62
     7
370
    25
100
AcDbCircle
 10
78.895004093
 20
-120.90345905
 30
0.0
 40
2.000000000000011
100
AcDbArc
 50
156.6822916132
 51
180.0
  0
ARC
  5
CB
330
1F
100
AcDbEntity
  8
0
  6
Continuous
 62
     7
370
    25
100
AcDbCircle
 10
199.895004093
 20
-120.90345905
 30
0.0
 40
2.000000000000011
100
AcDbArc
 50
0.0
 51
23.3177083868
  0
LINE
  5
CC
330
1F
100
AcDbEntity
  8
0
  6
Continuous
 62
     7
370
    25
100
AcDbLine
 10
76.895004093
 20
-120.9034581782
 30
0.0
 11
76.895004093
 21
-207.4907791914
 31
0.0
  0
LINE
  5
CD
330
1F
100
AcDbEntity
  8
0
  6
Continuous
 62
     7
370
    25
100
AcDbLine
 10
201.895004093
 20
-207.4907791914
 30
0.0
 11
201.895004093
 21
-120.9034581782
 31
0.0
  0
LINE
  5
CE
330
1F
100
AcDbEntity
  8
0
  6
Continuous
 62
     7
370
    25
100
AcDbLine
 10
201.7316538388
 20
-120.1118004622
 30
0.0
 11
177.0583558375
 21
-62.8697534205
 31
0.0
  0
LINE
  5
CF
330
1F
100
AcDbEntity
  8
0
  6
Continuous
 62
     7
370
    25
100
AcDbLine
 10
101.7316523486
 20
-62.8697534205
 30
0.0
 11
77.0583543473
 21
-120.1118004622
 31
0.0
  0
ARC
  5
D0
330
1F
100
AcDbEntity
  8
0
  6
Continuous
 62
     7
370
    25
100
AcDbCircle
 10
99.895004093
 20
-62.0780941382
 30
0.0
 40
1.999999999999995
100
AcDbArc
 50
336.6822916132
 51
0.0
  0
ARC
  5
D1
330
1F
100
AcDbEntity
  8
0
  6
Continuous
 62
     7
370
    25
100
AcDbCircle
 10
178.895004093
 20
-62.0780941382
 30
0.0
 40
1.999999999999982
100
AcDbArc
 50
180.0
 51
203.3177083868
  0
LINE
  5
D2
330
1F
100
AcDbEntity
  8
0
  6
Continuous
 62
     7
370
    25
100
AcDbLine
 10
101.8950026029
 20
7.5092243848
 30
0.0
 11
101.8950026029
 21
-62.0780957045
 31
0.0
  0
LINE
  5
D3
330
1F
100
AcDbEntity
  8
0
  6
Continuous
 62
     7
370
    25
100
AcDbLine
 10
176.8950055832
 20
-62.0780957045
 30
0.0
 11
176.8950055832
 21
7.5092243848
 31
0.0
  0
LINE
  5
D4
330
1F
100
AcDbEntity
  8
0
  6
Continuous
 62
     7
370
    25
100
AcDbLine
 10
76.895004093
 20
-207.4907791914
 30
0.0
 11
201.895004093
 21
-207.4907791914
 31
0.0
  0
LINE
  5
D5
330
1F
100
AcDbEntity
  8
0
  6
Continuous
 62
     7
370
    25
100
AcDbLine
 10
101.8950026029
 20
7.5092243848
 30
0.0
 11
176.8950055832
 21
7.5092243848
 31
0.0
  0
LINE
  5
D6
330
1F
100
AcDbEntity
  8
0
  6
Continuous
 62
     1
370
    25
100
AcDbLine
 10
77.0583543473
 20
-120.1118004622
 30
0.0
 11
201.7316538388
 21
-120.1118004622
 31
0.0
  0
LINE
  5
D7
330
1F
100
AcDbEntity
  8
0
  6
Continuous
 62
     1
370
    25
100
AcDbLine
 10
76.895004093
 20
-120.9034581782
 30
0.0
 11
201.895004093
 21
-120.9034581782
 31
0.0
  0
LINE
  5
D8
330
1F
100
AcDbEntity
  8
0
  6
Continuous
 62
     1
370
    25
100
AcDbLine
 10
101.7316523486
 20
-62.8697534205
 30
0.0
 11
177.0583558375
 21
-62.8697534205
 31
0.0
  0
LINE
  5
D9
330
1F
100
AcDbEntity
  8
0
  6
Continuous
 62
     1
370
    25
100
AcDbLine
 10
101.8950026029
 20
-62.0780957045
 30
0.0
 11
176.8950055832
 21
-62.0780957045
 31
0.0
  0
LINE
  5
DA
330
1F
100
AcDbEntity
  8
0
  6
Continuous
 62
     7
370
    25
100
AcDbLine
 10
399.6080080631
 20
-44.91802524
 30
0.0
 11
338.3815262099
 21
-9.5727296119
 31
0.0
  0
LINE
  5
DB
330
1F
100
AcDbEntity
  8
0
  6
Continuous
 62
     7
370
    25
100
AcDbLine
 10
275.8866059748
 20
-117.8288357361
 30
0.0
 11
337.113087828
 21
-153.1741313642
 31
0.0
  0
SPLINE
  5
DC
330
1F
100
AcDbEntity
  8
0
  6
Continuous
 62
     7
370
    25
100
AcDbSpline
210
0.0
220
0.0
230
1.0
 70
     8
 71
     3
 72
    11
 73
     7
 74
     0
 42
0.000000001
 43
0.00000001
 40
0.0
 40
0.0
 40
0.0
 40
0.0
 40
0.1526489866006341
 40
0.4414868031044878
 40
0.7290661577111588
 40
1.0
 40
1.0
 40
1.0
 40
1.0
 10
406.6557698267749
 20
-51.30325360460002
 30
0.0
 10
406.4418167969038
 20
-51.00806698272243
 30
0.0
 10
405.8230282855893
 20
-50.15433712238014
 30
0.0
 10
404.6789926292396
 20
-48.88816585046489
 30
0.0
 10
403.274224253976
 20
-47.51430486772279
 30
0.0
 10
402.2634151042903
 20
-46.72892931479875
 30
0.0
 10
401.773073231856
 20
-46.3479449130403
 30
0.0
  0
SPLINE
  5
DD
330
1F
100
AcDbEntity
  8
0
  6
Continuous
 62
     7
370
    25
100
AcDbSpline
210
0.0
220
0.0
230
1.0
 70
     8
 71
     3
 72
    12
 73
     8
 74
     0
 42
0.000000001
 43
0.00000001
 40
0.0
 40
0.0
 40
0.0
 40
0.0
 40
0.0573063164400664
 40
0.3373770919407025
 40
0.6179184176520434
 40
0.8992633650357351
 40
1.0
 40
1.0
 40
1.0
 40
1.0
 10
339.3510999718928
 20
-154.2876552983685
 30
0.0
 10
339.4714376977152
 20
-154.3448235529305
 30
0.0
 10
340.179896983022
 20
-154.6813878389222
 30
0.0
 10
341.5524387816091
 20
-155.1505221172634
 30
0.0
 10
343.4698896494995
 20
-155.6728859852194
 30
0.0
 10
345.0230302578028
 20
-155.9810918860969
 30
0.0
 10
345.9502235068513
 20
-156.0667890219333
 30
0.0
 10
346.1946800108701
 20
-156.0893832570104
 30
0.0
  0
LINE
  5
DE
330
1F
100
AcDbEntity
  8
0
  6
Continuous
 62
     7
370
    25
100
AcDbLine
 10
348.7389021801
 20
-156.2716909115
 30
0.0
 11
397.2030983504
 21
-157.1157228097
 31
0.0
  0
LINE
  5
DF
330
1F
100
AcDbEntity
  8
0
  6
Continuous
 62
     7
370
    25
100
AcDbLine
 10
433.0712307398
 20
-94.9835652243
 30
0.0
 11
408.1042806189
 21
-53.4366987653
 31
0.0
  0
LINE
  5
E0
330
1F
100
AcDbEntity
  8
0
  6
Continuous
 62
     7
370
    25
100
AcDbLine
 10
477.9105029102
 20
-118.9878232529
 30
0.0
 11
431.3405296747
 21
-92.103549952
 31
0.0
  0
LINE
  5
E1
330
1F
100
AcDbEntity
  8
0
  6
Continuous
 62
     7
370
    25
100
AcDbLine
 10
393.8435770068
 20
-157.0572157557
 30
0.0
 11
440.4135502423
 21
-183.9414890567
 31
0.0
  0
LWPOLYLINE
  5
E2
330
1F
100
AcDbEntity
  8
0
  6
Continuous
 62
     7
370
    25
100
AcDbPolyline
 90
      114
 70
   128
 43
0.0
 10
262.9398922682
 20
-89.2135361685
 10
263.0081938704
 20
-86.3379150826
 10
263.2128853085
 20
-83.3923244367
 10
263.5533343799
 20
-80.3858682428
 10
264.0284874133
 20
-77.3278405896
 10
264.6368798057
 20
-74.2276912318
 10
265.3766281199
 20
-71.0950033458
 10
266.2454458893
 20
-67.9394619727
 10
267.2406488864
 20
-64.7708175156
 10
268.3591577573
 20
-61.5988659686
 10
269.5975190944
 20
-58.4334124163
 10
270.9519054371
 20
-55.284239094
 10
272.4181258082
 20
-52.1610795336
 10
273.9916546898
 20
-49.073591189
 10
275.6676214866
 20
-46.0313143708
 10
277.4408500389
 20
-43.0436494355
 10
279.3058612564
 20
-40.119837014
 10
281.256883655
 20
-37.2689123848
 10
283.2878928696
 20
-34.4996887477
 10
285.3926103367
 20
-31.8207214813
 10
287.5645283196
 20
-29.2402936973
 10
289.7969349327
 20
-26.7663805009
 10
292.0829299465
 20
-24.4066307406
 10
294.4154458615
 20
-22.1683365925
 10
296.7872755665
 20
-20.0584175926
 10
299.1910861685
 20
-18.0833944023
 10
301.6194479682
 20
-16.2493720812
 10
304.0648552048
 20
-14.5620189855
 10
306.5197491865
 20
-13.0265503736
 10
308.9765420814
 20
-11.6477146716
 10
311.4276399657
 20
-10.4297680007
 10
313.8654663671
 20
-9.3764849205
 10
316.2824867133
 20
-8.4911108548
 10
318.671229817
 20
-7.776386191
 10
321.0243120769
 20
-7.2345231835
 10
323.3344598691
 20
-6.8671930273
 10
325.5945345712
 20
-6.675532705
 10
327.7975477086
 20
-6.660136243
 10
329.9366912485
 20
-6.8210463488
 10
332.0053534038
 20
-7.157769622
 10
333.9971397074
 20
-7.669261347
 10
335.9058940853
 20
-8.3539467881
 10
337.7257186129
 20
-9.2097037003
 10
339.4509840516
 20
-10.2338897074
 10
341.0763588252
 20
-11.4233407834
 10
342.5968195561
 20
-12.7743773375
 10
344.0076695049
 20
-14.2828239878
 10
345.3045438387
 20
-15.9440186871
 10
346.4834359726
 20
-17.752827935
 10
347.5407002042
 20
-19.7036589452
 10
348.4730701527
 20
-21.7904824616
 10
349.2776640275
 20
-24.0068494884
 10
349.9519951645
 20
-26.3459057401
 10
350.4939772945
 20
-28.8004258632
 10
350.9019377147
 20
-31.3628195205
 10
351.1746120195
 20
-34.0251697944
 10
351.3111625403
 20
-36.7792438352
 10
351.3111625403
 20
-39.6165316428
 10
351.1746120195
 20
-42.528263559
 10
350.9019377147
 20
-45.5054368841
 10
350.4939772945
 20
-48.5388516165
 10
349.9519951645
 20
-51.6191309873
 10
349.2776640275
 20
-54.7367533975
 10
348.4730701527
 20
-57.8820847385
 10
347.5407002042
 20
-61.0453996838
 10
346.4834359726
 20
-64.2169219927
 10
345.3045438387
 20
-67.3868511261
 10
344.0076695049
 20
-70.5453850594
 10
342.5968195561
 20
-73.6827643878
 10
341.0763588252
 20
-76.7892875353
 10
339.4509840516
 20
-79.8553563799
 10
337.7257186129
 20
-82.8714914627
 10
335.9058940853
 20
-85.8283730507
 10
333.9971397074
 20
-88.7168593873
 10
332.0053534038
 20
-91.5280186287
 10
329.9366912485
 20
-94.2531683874
 10
327.7975477086
 20
-96.883881053
 10
325.5945345712
 20
-99.4120294187
 10
323.3344598691
 20
-101.8297958042
 10
321.0243120769
 20
-104.1297055151
 10
318.671229817
 20
-106.3046534559
 10
316.2824867133
 20
-108.3479128743
 10
313.8654663671
 20
-110.2531711001
 10
311.4276399657
 20
-112.0145424713
 10
308.9765420814
 20
-113.6265731798
 10
306.5197491865
 20
-115.0842901765
 10
304.0648552048
 20
-116.3831818249
 10
301.6194479682
 20
-117.5192358266
 10
299.1910861685
 20
-118.4889403604
 10
296.7872755665
 20
-119.2892978156
 10
294.4154458615
 20
-119.9178351034
 10
292.0829299465
 20
-120.3726065072
 10
289.7969349327
 20
-120.6522104097
 10
287.5645283196
 20
-120.7557790254
 10
285.3926103367
 20
-120.6829943679
 10
283.2878928696
 20
-120.4340821639
 10
281.256883655
 20
-120.0098118521
 10
279.3058612564
 20
-119.4114897363
 10
277.4408500389
 20
-118.6409734324
 10
275.6676214866
 20
-117.700634605
 10
273.9916546898
 20
-116.5933878622
 10
272.4181258082
 20
-115.3226572935
 10
270.9519054371
 20
-113.8923597399
 10
269.5975190944
 20
-112.3069276038
 10
268.3591577573
 20
-110.5712556175
 10
267.2406488864
 20
-108.6907069245
 10
266.2454458893
 20
-106.6710993901
 10
265.3766281199
 20
-104.5186736615
 10
264.6368798057
 20
-102.2400809992
 10
264.0284874133
 20
-99.8423665459
 10
263.5533343799
 20
-97.3329389078
 10
263.2128853085
 20
-94.7195568449
 10
263.0081938704
 20
-92.010297903
 10
262.9398922682
 20
-89.2135361685
  0
LWPOLYLINE
  5
E3
330
1F
100
AcDbEntity
  8
0
  6
Continuous
 62
     7
370
    25
100
AcDbPolyline
 90
      104
 70
   128
 43
0.0
 10
271.0009090511
 20
-84.5600102328
 10
271.0681174694
 20
-81.9774754351
 10
271.2694951116
 20
-79.3269495933
 10
271.6042912369
 20
-76.6182927989
 10
272.071257245
 20
-73.8615841098
 10
272.6686624808
 20
-71.0670751638
 10
273.394281064
 20
-68.2451635613
 10
274.2454129621
 20
-65.4063457182
 10
275.2188918931
 20
-62.5611849274
 10
276.3110984963
 20
-59.7202619299
 10
277.517968235
 20
-56.8941467785
 10
278.8350124699
 20
-54.093353212
 10
280.2573289958
 20
-51.3283021539
 10
281.7796310171
 20
-48.6092730454
 10
283.3962524171
 20
-45.946387116
 10
285.1011806843
 20
-43.3495488306
 10
286.8880727181
 20
-40.8284185146
 10
288.7502798531
 20
-38.3923766145
 10
290.6808768352
 20
-36.0504826351
 10
292.672680261
 20
-33.8114492864
 10
294.7182815048
 20
-31.6836052232
 10
296.8100697676
 20
-29.6748665302
 10
298.9402643461
 20
-27.7927089684
 10
301.1009403157
 20
-26.0441318549
 10
303.2840601407
 20
-24.4356367736
 10
305.4815021563
 20
-22.9732141742
 10
307.6850916025
 20
-21.6622980803
 10
309.886631329
 20
-20.5077696568
 10
312.0779312646
 20
-19.5139219464
 10
314.2508400277
 20
-18.6844507468
 10
316.3972729967
 20
-18.0224444897
 10
318.5092476243
 20
-17.5303668962
 10
320.5789041819
 20
-17.2100419596
 10
322.5985469182
 20
-17.0626666868
 10
324.5606592063
 20
-17.0887901871
 10
326.457944373
 20
-17.2883144367
 10
328.2833428213
 20
-17.6604935194
 10
330.0300649572
 20
-18.2039450371
 10
331.6916122635
 20
-18.9166501116
 10
333.2618036415
 20
-19.7959533868
 10
334.7347991184
 20
-20.8385858453
 10
336.1051169699
 20
-22.0406686119
 10
337.3676600613
 20
-23.3977296867
 10
338.5177342876
 20
-24.9047206764
 10
339.551056475
 20
-26.5560365676
 10
340.4637886264
 20
-28.3455309392
 10
341.2525300178
 20
-30.2665509426
 10
341.914348809
 20
-32.3119479516
 10
342.4467820438
 20
-34.4741140643
 10
342.8478514542
 20
-36.7450041582
 10
343.1160608272
 20
-39.1161731524
 10
343.2504170777
 20
-41.5787971127
 10
343.2504170777
 20
-44.1237169768
 10
343.1160608272
 20
-46.7414653621
 10
342.8478514542
 20
-49.4223023069
 10
342.4467820438
 20
-52.1562572854
 10
341.914348809
 20
-54.9331577259
 10
341.2525300178
 20
-57.7426744466
 10
340.4637886264
 20
-60.5743558765
 10
339.551056475
 20
-63.4176683589
 10
338.5177342876
 20
-66.2620326531
 10
337.3676600613
 20
-69.0968710803
 10
336.1051169699
 20
-71.9116333804
 10
334.7347991184
 20
-74.6958514617
 10
333.2618036415
 20
-77.4391682978
 10
331.6916122635
 20
-80.1313759493
 10
330.0300649572
 20
-82.7624627097
 10
328.2833428213
 20
-85.3226366784
 10
326.457944373
 20
-87.8023759488
 10
324.5606592063
 20
-90.1924590245
 10
322.5985469182
 20
-92.4839891521
 10
320.5789041819
 20
-94.6684437483
 10
318.5092476243
 20
-96.7376934095
 10
316.3972729967
 20
-98.6840498175
 10
314.2508400277
 20
-100.5002623161
 10
312.0779312646
 20
-102.1795781733
 10
309.886631329
 20
-103.7157515155
 10
307.6850916025
 20
-105.1030667555
 10
305.4815021563
 20
-106.3363608812
 10
303.2840601407
 20
-107.4110508291
 10
301.1009403157
 20
-108.3231322457
 10
298.9402643461
 20
-109.0692185064
 10
296.8100697676
 20
-109.6465312536
 10
294.7182815048
 20
-110.0529198814
 10
292.672680261
 20
-110.2868767419
 10
290.6808768352
 20
-110.3475306784
 10
288.7502798531
 20
-110.2346565286
 10
286.8880727181
 20
-109.9486732212
 10
285.1011806843
 20
-109.4906445331
 10
283.3962524171
 20
-108.862274525
 10
281.7796310171
 20
-108.0658999342
 10
280.2573289958
 20
-107.1044833278
 10
278.8350124699
 20
-105.9816039757
 10
277.517968235
 20
-104.7014373154
 10
276.3110984963
 20
-103.2687443046
 10
275.2188918931
 20
-101.6888562093
 10
274.2454129621
 20
-99.967650268
 10
273.394281064
 20
-98.1115283972
 10
272.6686624808
 20
-96.1273981782
 10
272.071257245
 20
-94.0226386358
 10
271.6042912369
 20
-91.8050774236
 10
271.2694951116
 20
-89.4829680076
 10
271.0681174694
 20
-87.0649478424
 10
271.0009090511
 20
-84.5600102328
  0
LWPOLYLINE
  5
E4
330
1F
100
AcDbEntity
  8
0
  6
Continuous
 62
     7
370
    25
100
AcDbPolyline
 90
        3
 70
   128
 43
0.0
 10
399.6080080631
 20
-44.91802524
 10
400.6774659048
 20
-45.5791853354
 10
401.7171074854
 20
-46.3122717761
  0
LWPOLYLINE
  5
E5
330
1F
100
AcDbEntity
  8
0
  6
Continuous
 62
     7
370
    25
100
AcDbPolyline
 90
        3
 70
   128
 43
0.0
 10
339.2113871203
 20
-154.2327268178
 10
338.6673318922
 20
-153.9862690604
 10
337.113087828
 20
-153.1741313642
  0
ARC
  5
E6
330
1F
100
AcDbEntity
  8
0
  6
Continuous
 62
     7
370
    25
100
AcDbCircle
 10
384.7647503118
 20
-67.5254909903
 30
0.0
 40
27.26184010924203
100
AcDbArc
 50
23.6302903573
 51
36.2984101432
  0
ARC
  5
E7
330
1F
100
AcDbEntity
  8
0
  6
Continuous
 62
     7
370
    25
100
AcDbCircle
 10
349.2708307051
 20
-128.7460572866
 30
0.0
 40
27.5292472753809
100
AcDbArc
 50
263.8174312413
 51
276.7447867298
  0
LINE
  5
E8
330
1F
100
AcDbEntity
  8
0
  6
Continuous
 62
     7
370
    25
100
AcDbLine
 10
397.6575296223
 20
-157.1173266807
 30
0.0
 11
397.2030983504
 21
-157.1157228097
 31
0.0
  0
LWPOLYLINE
  5
E9
330
1F
100
AcDbEntity
  8
0
  6
Continuous
 62
     7
370
    25
100
AcDbPolyline
 90
       46
 70
   128
 43
0.0
 10
477.9105029102
 20
-118.9878232529
 10
477.9120267822
 20
-118.9887032515
 10
479.2018639093
 20
-119.8438849535
 10
480.3895818567
 20
-120.86019916
 10
481.4691286003
 20
-122.0324673112
 10
482.4350052934
 20
-123.3547124134
 10
483.2822860232
 20
-124.8202023868
 10
484.0066586402
 20
-126.4214645185
 10
484.6044273926
 20
-128.1503409761
 10
485.0725445365
 20
-129.9980237926
 10
485.4086314091
 20
-131.9550932711
 10
485.6109705262
 20
-134.0115799622
 10
485.6785319244
 20
-136.1570034499
 10
485.6109705262
 20
-138.3804316675
 10
485.4086314091
 20
-140.6705341306
 10
485.0725445365
 20
-143.0156412525
 10
484.6044273926
 20
-145.403800619
 10
484.0066586402
 20
-147.8228461875
 10
483.2822860232
 20
-150.2604511407
 10
482.4350052934
 20
-152.7041906221
 10
481.4691286003
 20
-155.141613217
 10
480.3895818567
 20
-157.5602995076
 10
479.2018639093
 20
-159.947923667
 10
477.9120267822
 20
-162.2923196171
 10
476.5266440666
 20
-164.5815403424
 10
475.0527753596
 20
-166.8039194836
 10
473.4979307028
 20
-168.948132932
 10
471.8700350209
 20
-171.0032558609
 10
470.1773807062
 20
-172.9588129116
 10
468.4285946918
 20
-174.8048443505
 10
466.6325890606
 20
-176.5319376242
 10
464.798514947
 20
-178.1312904727
 10
462.9357187439
 20
-179.5947605465
 10
461.0536923827
 20
-180.9148849829
 10
459.1620265762
 20
-182.0849378173
 10
457.2703607698
 20
-183.0989558338
 10
455.3883344086
 20
-183.9517727817
 10
453.5255382055
 20
-184.6390414242
 10
451.6914640919
 20
-185.1572654733
 10
449.8954584607
 20
-185.5037961632
 10
448.1466724463
 20
-185.6768700785
 10
446.4540181316
 20
-185.6756101012
 10
444.8261224497
 20
-185.5000155198
 10
443.2712777929
 20
-185.1509875006
 10
441.7974090859
 20
-184.6303009469
 10
440.4135502423
 20
-183.9414890567
  0
LWPOLYLINE
  5
EA
330
1F
100
AcDbEntity
  8
0
  6
Continuous
 62
     1
370
    25
100
AcDbPolyline
 90
       56
 70
   128
 43
0.0
 10
401.7171074854
 20
-46.3122717761
 10
402.3028406784
 20
-46.7686364115
 10
403.8233014093
 20
-48.1196729656
 10
405.2341513581
 20
-49.6281196159
 10
406.5310256919
 20
-51.2893143152
 10
407.7099178258
 20
-53.0981235631
 10
408.7671820574
 20
-55.0489545733
 10
409.699552006
 20
-57.1357780897
 10
410.5041458807
 20
-59.3521451165
 10
411.1784770177
 20
-61.6912013682
 10
411.7204591477
 20
-64.1457214913
 10
412.1284195679
 20
-66.7081151486
 10
412.4010938727
 20
-69.3704654225
 10
412.5376443935
 20
-72.1245394633
 10
412.5376443935
 20
-74.9618272708
 10
412.4010938727
 20
-77.8735591871
 10
412.1284195679
 20
-80.8507325122
 10
411.7204591477
 20
-83.8841472446
 10
411.1784770177
 20
-86.9644266154
 10
410.5041458807
 20
-90.0820490256
 10
409.699552006
 20
-93.2273803666
 10
408.7671820574
 20
-96.3906953119
 10
407.7099178258
 20
-99.5622176208
 10
406.5310256919
 20
-102.7321467542
 10
405.2341513581
 20
-105.8906806875
 10
403.8233014093
 20
-109.0280600159
 10
402.3028406784
 20
-112.1345831634
 10
400.6774659048
 20
-115.200652008
 10
398.9522004661
 20
-118.2167870908
 10
397.1323759386
 20
-121.1736686788
 10
395.2236215607
 20
-124.0621550154
 10
393.231835257
 20
-126.8733142568
 10
391.1631731017
 20
-129.5984640155
 10
389.0240295619
 20
-132.2291766811
 10
386.8210164244
 20
-134.7573250467
 10
384.5609417224
 20
-137.1750914323
 10
382.2507939301
 20
-139.4750011431
 10
379.8977116702
 20
-141.649949084
 10
377.5089685666
 20
-143.6932085024
 10
375.0919482203
 20
-145.5984667281
 10
372.6541218189
 20
-147.3598380994
 10
370.2030239346
 20
-148.9718688079
 10
367.7462310398
 20
-150.4295858046
 10
365.291337058
 20
-151.728477453
 10
362.8459298215
 20
-152.8645314547
 10
360.4175680217
 20
-153.8342359885
 10
358.0137574197
 20
-154.6345934437
 10
355.6419277147
 20
-155.2631307315
 10
353.3094117997
 20
-155.7179021353
 10
351.0234167859
 20
-155.9975060378
 10
348.7910101728
 20
-156.1010746535
 10
346.6190921899
 20
-156.028289996
 10
344.5143747228
 20
-155.779377792
 10
342.4833655083
 20
-155.3551074801
 10
340.5323431097
 20
-154.7567853644
 10
339.2113871203
 20
-154.2327268178
  0
LWPOLYLINE
  5
EB
330
1F
100
AcDbEntity
  8
0
  6
Continuous
 62
     1
370
    25
100
AcDbPolyline
 90
       44
 70
   128
 43
0.0
 10
409.7407110377
 20
-56.5980341975
 10
410.1512950992
 20
-57.5684735636
 10
410.9537842657
 20
-59.7790471865
 10
411.6263531376
 20
-62.1119914327
 10
412.1669180798
 20
-64.5600961578
 10
412.5738116579
 20
-67.1157938392
 10
412.8457747346
 20
-69.7711846703
 10
412.9819670072
 20
-72.5180610863
 10
412.9819670072
 20
-75.34793324
 10
412.8457747346
 20
-78.2520539069
 10
412.5738116579
 20
-81.2214466226
 10
412.1669180798
 20
-84.2469336295
 10
411.6263531376
 20
-87.3191613522
 10
410.9537842657
 20
-90.4286370888
 10
410.1512950992
 20
-93.5657449816
 10
409.2213591311
 20
-96.7207939236
 10
408.1668581523
 20
-99.8840274463
 10
406.9910480067
 20
-103.0456693444
 10
405.6975638601
 20
-106.1959495315
 10
404.2904017605
 20
-109.3251283741
 10
402.77391337
 20
-112.4235331925
 10
401.1527875256
 20
-115.4815886779
 10
399.4320317997
 20
-118.4898397046
 10
397.6169645977
 20
-121.4389923942
 10
395.713199353
 20
-124.3199293233
 10
393.7266181851
 20
-127.1237429816
 10
391.6633639973
 20
-129.8417677104
 10
389.5298101832
 20
-132.465606316
 10
387.3325540418
 20
-134.9871460389
 10
385.0783864841
 20
-137.3985942925
 10
382.7742762279
 20
-139.6924938712
 10
380.4273447736
 20
-141.8617556477
 10
378.0448446719
 20
-143.8996741606
 10
375.6341417432
 20
-145.7999561297
 10
373.2026864306
 20
-147.5567217849
 10
370.7579948673
 20
-149.1645401301
 10
368.307623193
 20
-150.6184468122
 10
365.859145328
 20
-151.913944784
 10
363.4201295952
 20
-153.047029968
 10
360.9981145182
 20
-154.0141991437
 10
358.6005864308
 20
-154.8124628736
 10
356.2349562638
 20
-155.4393589038
 10
353.9085358368
 20
-155.8929415156
 10
352.5040592817
 20
-156.0847787
  0
LWPOLYLINE
  5
EC
330
1F
100
AcDbEntity
  8
0
  6
Continuous
 62
     1
370
    25
100
AcDbPolyline
 90
       37
 70
   128
 43
0.0
 10
433.0712307398
 20
-94.9835652243
 10
433.6219030232
 20
-95.9751540409
 10
434.3494287513
 20
-97.5833914341
 10
434.9498027058
 20
-99.3197990002
 10
435.4199613377
 20
-101.175528466
 10
435.757510179
 20
-103.1411247719
 10
435.9607291117
 20
-105.2065703687
 10
436.0285855378
 20
-107.3613390225
 10
435.9607291117
 20
-109.5944530382
 10
435.757510179
 20
-111.8945302203
 10
435.4199613377
 20
-114.2498521229
 10
434.9498027058
 20
-116.6484151906
 10
434.3494287513
 20
-119.0779997699
 10
433.6219030232
 20
-121.5262204891
 10
432.77093181
 20
-123.9806045838
 10
431.8008483345
 20
-126.4286458877
 10
430.7165982661
 20
-128.8578679504
 10
429.523705476
 20
-131.2558939961
 10
428.2282496471
 20
-133.6105009147
 10
426.8368333467
 20
-135.9096930238
 10
425.3565438307
 20
-138.1417545365
 10
423.7949267023
 20
-140.2953088756
 10
422.159938496
 20
-142.3593840685
 10
420.4599111169
 20
-144.3234591327
 10
418.7035083768
 20
-146.1775287102
 10
416.8996785783
 20
-147.9121471706
 10
415.0576156612
 20
-149.5184692922
 10
413.1867045435
 20
-150.9883122341
 10
411.2964801263
 20
-152.3141852859
 10
409.3965741171
 20
-153.4893357755
 10
407.4966681078
 20
-154.5077700724
 10
405.6064436907
 20
-155.3643036789
 10
403.7355325729
 20
-156.0545687343
 10
401.8934696559
 20
-156.5750471865
 10
400.0896398574
 20
-156.9230862808
 10
398.3332371172
 20
-157.096916142
 10
397.6575296223
 20
-157.1173266807
  0
LWPOLYLINE
  5
ED
330
1F
100
AcDbEntity
  8
0
  6
Continuous
 62
     1
370
    25
100
AcDbPolyline
 90
       41
 70
   128
 43
0.0
 10
432.2350478021
 20
-93.592096599
 10
432.2634626805
 20
-93.6266410107
 10
433.2293393736
 20
-94.9488861129
 10
434.0766201034
 20
-96.4143760864
 10
434.8009927204
 20
-98.015638218
 10
435.3987614729
 20
-99.7445146756
 10
435.8668786167
 20
-101.5921974921
 10
436.2029654893
 20
-103.5492669706
 10
436.4053046065
 20
-105.6057536617
 10
436.4728660046
 20
-107.7511771494
 10
436.4053046065
 20
-109.974605367
 10
436.2029654893
 20
-112.2647078301
 10
435.8668786167
 20
-114.6098149521
 10
435.3987614729
 20
-116.9979743185
 10
434.8009927204
 20
-119.417019887
 10
434.0766201034
 20
-121.8546248402
 10
433.2293393736
 20
-124.2983643216
 10
432.2634626805
 20
-126.7357869165
 10
431.1839159369
 20
-129.1544732071
 10
429.9961979895
 20
-131.5420973665
 10
428.7063608624
 20
-133.8864933167
 10
427.3209781468
 20
-136.175714042
 10
425.8471094398
 20
-138.3980931832
 10
424.292264783
 20
-140.5423066316
 10
422.6643691011
 20
-142.5974295604
 10
420.9717147864
 20
-144.5529866111
 10
419.222928772
 20
-146.3990180501
 10
417.4269231408
 20
-148.1261113237
 10
415.5928490272
 20
-149.7254641723
 10
413.7300528242
 20
-151.188934246
 10
411.8480264629
 20
-152.5090586824
 10
409.9563606565
 20
-153.6791115168
 10
408.06469485
 20
-154.6931295333
 10
406.1826684888
 20
-155.5459464812
 10
404.3198722857
 20
-156.2332151237
 10
402.4857981721
 20
-156.7514391728
 10
400.6897925409
 20
-157.0979698627
 10
398.9410065265
 20
-157.271043778
 10
397.2483522119
 20
-157.2697838008
 10
395.6204565299
 20
-157.0941892194
 10
395.5799573597
 20
-157.0874545622
  0
ENDSEC
  0
SECTION
  2
OBJECTS
  0
DICTIONARY
  5
C
330
0
100
AcDbDictionary
281
     1
  3
ACAD_GROUP
350
D
  3
ACAD_LAYOUT
350
1A
  3
ACAD_MLINESTYLE
350
17
  3
ACAD_PLOTSETTINGS
350
19
  3
ACAD_PLOTSTYLENAME
350
E
  3
ACAD_SCALELIST
350
47
  0
DICTIONARY
  5
D
102
{ACAD_REACTORS
330
C
102
}
330
C
100
AcDbDictionary
281
     1
  0
DICTIONARY
  5
1A
102
{ACAD_REACTORS
330
C
102
}
330
C
100
AcDbDictionary
281
     1
  3
Layout1
350
1E
  3
Layout2
350
26
  3
Model
350
22
  0
DICTIONARY
  5
17
102
{ACAD_REACTORS
330
C
102
}
330
C
100
AcDbDictionary
281
     1
  3
Standard
350
18
  0
DICTIONARY
  5
19
102
{ACAD_REACTORS
330
C
102
}
330
C
100
AcDbDictionary
281
     1
  0
ACDBDICTIONARYWDFLT
  5
E
102
{ACAD_REACTORS
330
C
102
}
330
C
100
AcDbDictionary
281
     1
  3
Normal
350
F
100
AcDbDictionaryWithDefault
340
F
  0
DICTIONARY
  5
47
102
{ACAD_REACTORS
330
C
102
}
330
C
100
AcDbDictionary
281
     1
  3
A0
350
48
  3
A1
350
49
  3
A2
350
4A
  3
A3
350
4B
  3
A4
350
4C
  3
A5
350
4D
  3
A6
350
4E
  3
A7
350
4F
  3
A8
350
50
  3
A9
350
51
  3
B0
350
52
  3
B1
350
53
  3
B2
350
54
  3
B3
350
55
  3
B4
350
56
  3
B5
350
57
  3
B6
350
58
  3
B7
350
59
  3
B8
350
5A
  3
B9
350
5B
  3
C0
350
5C
  3
C1
350
5D
  3
C2
350
5E
  3
C3
350
5F
  3
C4
350
60
  3
C5
350
61
  3
C6
350
62
  3
C7
350
63
  3
C8
350
64
  3
C9
350
65
  3
D0
350
66
  3
D1
350
67
  3
D2
350
68
  0
LAYOUT
  5
1E
102
{ACAD_REACTORS
330
1A
102
}
330
1A
100
AcDbPlotSettings
  1

  2
none_device
  4

  6

 40
0.0
 41
0.0
 42
0.0
 43
0.0
 44
0.0
 45
0.0
 46
0.0
 47
0.0
 48
0.0
 49
0.0
140
0.0
141
0.0
142
1.0
143
1.0
 70
   688
 72
     1
 73
     0
 74
     5
  7

 75
    16
147
1.0
148
0.0
149
0.0
100
AcDbLayout
  1
Layout1
 70
     1
 71
     1
 10
0.0
 20
0.0
 11
420.0
 21
297.0
 12
0.0
 22
0.0
 32
0.0
 14
1.0000000000E+20
 24
1.0000000000E+20
 34
1.0000000000E+20
 15
-1.0000000000E+20
 25
-1.0000000000E+20
 35
-1.0000000000E+20
146
0.0
 13
0.0
 23
0.0
 33
0.0
 16
1.0
 26
0.0
 36
0.0
 17
0.0
 27
1.0
 37
0.0
 76
     0
330
1B
  0
LAYOUT
  5
26
102
{ACAD_REACTORS
330
1A
102
}
330
1A
100
AcDbPlotSettings
  1

  2
none_device
  4

  6

 40
0.0
 41
0.0
 42
0.0
 43
0.0
 44
0.0
 45
0.0
 46
0.0
 47
0.0
 48
0.0
 49
0.0
140
0.0
141
0.0
142
1.0
143
1.0
 70
   688
 72
     1
 73
     0
 74
     5
  7

 75
    16
147
1.0
148
0.0
149
0.0
100
AcDbLayout
  1
Layout2
 70
     1
 71
     2
 10
0.0
 20
0.0
 11
0.0
 21
0.0
 12
0.0
 22
0.0
 32
0.0
 14
0.0
 24
0.0
 34
0.0
 15
0.0
 25
0.0
 35
0.0
146
0.0
 13
0.0
 23
0.0
 33
0.0
 16
1.0
 26
0.0
 36
0.0
 17
0.0
 27
1.0
 37
0.0
 76
     0
330
23
  0
LAYOUT
  5
22
102
{ACAD_REACTORS
330
1A
102
}
330
1A
100
AcDbPlotSettings
  1

  2
none_device
  4
Letter_(8.50_x_11.00_Inches)
  6

 40
6.35
 41
6.35
 42
6.35000508
 43
6.35000508
 44
215.9
 45
279.4
 46
0.0
 47
0.0
 48
0.0
 49
0.0
140
0.0
141
0.0
142
1.0
143
1.0
 70
  1712
 72
     1
 73
     0
 74
     0
  7

 75
     0
147
1.0
148
0.0
149
0.0
100
AcDbLayout
  1
Model
 70
     1
 71
     0
 10
0.0
 20
0.0
 11
279.4
 21
215.9
 12
0.0
 22
0.0
 32
0.0
 14
0.0
 24
0.0
 34
0.0
 15
279.4
 25
215.9
 35
0.0
146
0.0
 13
0.0
 23
0.0
 33
0.0
 16
1.0
 26
0.0
 36
0.0
 17
0.0
 27
1.0
 37
0.0
 76
     0
330
1F
331
29
  0
MLINESTYLE
  5
18
102
{ACAD_REACTORS
330
17
102
}
330
17
100
AcDbMlineStyle
  2
Standard
 70
     0
  3

 62
   256
 51
90.0
 52
90.0
 71
     2
 49
0.5
 62
   256
  6
BYLAYER
 49
-0.5
 62
   256
  6
BYLAYER
  0
ACDBPLACEHOLDER
  5
F
102
{ACAD_REACTORS
330
E
102
}
330
E
  0
SCALE
  5
48
102
{ACAD_REACTORS
330
47
102
}
330
47
100
AcDbScale
 70
     0
300
1:1
140
1.0
141
1.0
290
     1
  0
SCALE
  5
49
102
{ACAD_REACTORS
330
47
102
}
330
47
100
AcDbScale
 70
     0
300
1:2
140
1.0
141
2.0
290
     0
  0
SCALE
  5
4A
102
{ACAD_REACTORS
330
47
102
}
330
47
100
AcDbScale
 70
     0
300
1:4
140
1.0
141
4.0
290
     0
  0
SCALE
  5
4B
102
{ACAD_REACTORS
330
47
102
}
330
47
100
AcDbScale
 70
     0
300
1:5
140
1.0
141
5.0
290
     0
  0
SCALE
  5
4C
102
{ACAD_REACTORS
330
47
102
}
330
47
100
AcDbScale
 70
     0
300
1:8
140
1.0
141
8.0
290
     0
  0
SCALE
  5
4D
102
{ACAD_REACTORS
330
47
102
}
330
47
100
AcDbScale
 70
     0
300
1:10
140
1.0
141
10.0
290
     0
  0
SCALE
  5
4E
102
{ACAD_REACTORS
330
47
102
}
330
47
100
AcDbScale
 70
     0
300
1:16
140
1.0
141
16.0
290
     0
  0
SCALE
  5
4F
102
{ACAD_REACTORS
330
47
102
}
330
47
100
AcDbScale
 70
     0
300
1:20
140
1.0
141
20.0
290
     0
  0
SCALE
  5
50
102
{ACAD_REACTORS
330
47
102
}
330
47
100
AcDbScale
 70
     0
300
1:30
140
1.0
141
30.0
290
     0
  0
SCALE
  5
51
102
{ACAD_REACTORS
330
47
102
}
330
47
100
AcDbScale
 70
     0
300
1:40
140
1.0
141
40.0
290
     0
  0
SCALE
  5
52
102
{ACAD_REACTORS
330
47
102
}
330
47
100
AcDbScale
 70
     0
300
1:50
140
1.0
141
50.0
290
     0
  0
SCALE
  5
53
102
{ACAD_REACTORS
330
47
102
}
330
47
100
AcDbScale
 70
     0
300
1:100
140
1.0
141
100.0
290
     0
  0
SCALE
  5
54
102
{ACAD_REACTORS
330
47
102
}
330
47
100
AcDbScale
 70
     0
300
2:1
140
2.0
141
1.0
290
     0
  0
SCALE
  5
55
102
{ACAD_REACTORS
330
47
102
}
330
47
100
AcDbScale
 70
     0
300
4:1
140
4.0
141
1.0
290
     0
  0
SCALE
  5
56
102
{ACAD_REACTORS
330
47
102
}
330
47
100
AcDbScale
 70
     0
300
8:1
140
8.0
141
1.0
290
     0
  0
SCALE
  5
57
102
{ACAD_REACTORS
330
47
102
}
330
47
100
AcDbScale
 70
     0
300
10:1
140
10.0
141
1.0
290
     0
  0
SCALE
  5
58
102
{ACAD_REACTORS
330
47
102
}
330
47
100
AcDbScale
 70
     0
300
100:1
140
100.0
141
1.0
290
     0
  0
SCALE
  5
59
102
{ACAD_REACTORS
330
47
102
}
330
47
100
AcDbScale
 70
     0
300
1/128" = 1'-0"
140
0.0078125
141
12.0
290
     0
  0
SCALE
  5
5A
102
{ACAD_REACTORS
330
47
102
}
330
47
100
AcDbScale
 70
     0
300
1/64" = 1'-0"
140
0.015625
141
12.0
290
     0
  0
SCALE
  5
5B
102
{ACAD_REACTORS
330
47
102
}
330
47
100
AcDbScale
 70
     0
300
1/32" = 1'-0"
140
0.03125
141
12.0
290
     0
  0
SCALE
  5
5C
102
{ACAD_REACTORS
330
47
102
}
330
47
100
AcDbScale
 70
     0
300
1/16" = 1'-0"
140
0.0625
141
12.0
290
     0
  0
SCALE
  5
5D
102
{ACAD_REACTORS
330
47
102
}
330
47
100
AcDbScale
 70
     0
300
3/32" = 1'-0"
140
0.09375
141
12.0
290
     0
  0
SCALE
  5
5E
102
{ACAD_REACTORS
330
47
102
}
330
47
100
AcDbScale
 70
     0
300
1/8" = 1'-0"
140
0.125
141
12.0
290
     0
  0
SCALE
  5
5F
102
{ACAD_REACTORS
330
47
102
}
330
47
100
AcDbScale
 70
     0
300
3/16" = 1'-0"
140
0.1875
141
12.0
290
     0
  0
SCALE
  5
60
102
{ACAD_REACTORS
330
47
102
}
330
47
100
AcDbScale
 70
     0
300
1/4" = 1'-0"
140
0.25
141
12.0
290
     0
  0
SCALE
  5
61
102
{ACAD_REACTORS
330
47
102
}
330
47
100
AcDbScale
 70
     0
300
3/8" = 1'-0"
140
0.375
141
12.0
290
     0
  0
SCALE
  5
62
102
{ACAD_REACTORS
330
47
102
}
330
47
100
AcDbScale
 70
     0
300
1/2" = 1'-0"
140
0.5
141
12.0
290
     0
  0
SCALE
  5
63
102
{ACAD_REACTORS
330
47
102
}
330
47
100
AcDbScale
 70
     0
300
3/4" = 1'-0"
140
0.75
141
12.0
290
     0
  0
SCALE
  5
64
102
{ACAD_REACTORS
330
47
102
}
330
47
100
AcDbScale
 70
     0
300
1" = 1'-0"
140
1.0
141
12.0
290
     0
  0
SCALE
  5
65
102
{ACAD_REACTORS
330
47
102
}
330
47
100
AcDbScale
 70
     0
300
1-1/2" = 1'-0"
140
1.5
141
12.0
290
     0
  0
SCALE
  5
66
102
{ACAD_REACTORS
330
47
102
}
330
47
100
AcDbScale
 70
     0
300
3" = 1'-0"
140
3.0
141
12.0
290
     0
  0
SCALE
  5
67
102
{ACAD_REACTORS
330
47
102
}
330
47
100
AcDbScale
 70
     0
300
6" = 1'-0"
140
6.0
141
12.0
290
     0
  0
SCALE
  5
68
102
{ACAD_REACTORS
330
47
102
}
330
47
100
AcDbScale
 70
     0
300
1'-0" = 1'-0"
140
12.0
141
12.0
290
     0
  0
ENDSEC
  0
EOF
